ISO-10303-21;
HEADER;
FILE_DESCRIPTION (( 'STEP AP203' ),
    '1' );
FILE_NAME ('Q-OZHWP-R2-25.4-894-M.STEP',
    '2020-12-22T09:20:00',
    ( '' ),
    ( '' ),
    'SwSTEP 2.0',
    'SolidWorks 2020',
    '' );
FILE_SCHEMA (( 'CONFIG_CONTROL_DESIGN' ));
ENDSEC;

DATA;
#1 = AXIS2_PLACEMENT_3D ( 'NONE', #60, #121, #4 ) ;
#2 = APPROVAL_PERSON_ORGANIZATION ( #150, #96, #108 ) ;
#3 = APPLICATION_CONTEXT ( 'configuration controlled 3d designs of mechanical parts and assemblies' ) ;
#4 = DIRECTION ( 'NONE',  ( 0.000000000000000000, 0.000000000000000000, 1.000000000000000000 ) ) ;
#5 = AXIS2_PLACEMENT_3D ( 'NONE', #45, #43, #145 ) ;
#6 = PLANE ( 'NONE',  #101 ) ;
#7 = ORIENTED_EDGE ( 'NONE', *, *, #143, .T. ) ;
#8 = DIRECTION ( 'NONE',  ( 1.000000000000000000, 0.000000000000000000, 0.000000000000000000 ) ) ;
#9 = MECHANICAL_CONTEXT ( 'NONE', #75, 'mechanical' ) ;
#10 = DATE_AND_TIME ( #131, #68 ) ;
#11 = CARTESIAN_POINT ( 'NONE',  ( 0.000000000000000000, 0.000000000000000000, 0.000000000000000000 ) ) ;
#12 = SHAPE_DEFINITION_REPRESENTATION ( #22, #165 ) ;
#13 = CC_DESIGN_PERSON_AND_ORGANIZATION_ASSIGNMENT ( #110, #95, ( #56 ) ) ;
#14 = CYLINDRICAL_SURFACE ( 'NONE', #73, 12.69999999999999929 ) ;
#15 = ADVANCED_FACE ( 'NONE', ( #81 ), #64, .F. ) ;
#16 = ORIENTED_EDGE ( 'NONE', *, *, #67, .F. ) ;
#17 = LINE ( 'NONE', #126, #44 ) ;
#18 = APPROVAL_STATUS ( 'not_yet_approved' ) ;
#19 = PERSON_AND_ORGANIZATION ( #58, #61 ) ;
#20 = PRODUCT_RELATED_PRODUCT_CATEGORY ( 'detail', '', ( #76 ) ) ;
#21 = APPROVAL_DATE_TIME ( #72, #77 ) ;
#22 = PRODUCT_DEFINITION_SHAPE ( 'NONE', 'NONE',  #130 ) ;
#23 = CC_DESIGN_DATE_AND_TIME_ASSIGNMENT ( #55, #69, ( #161 ) ) ;
#24 = ORIENTED_EDGE ( 'NONE', *, *, #146, .T. ) ;
#25 = ORIENTED_EDGE ( 'NONE', *, *, #42, .F. ) ;
#26 = UNCERTAINTY_MEASURE_WITH_UNIT (LENGTH_MEASURE( 1.000000000000000082E-05 ), #114, 'distance_accuracy_value', 'NONE');
#27 = DIRECTION ( 'NONE',  ( -1.000000000000000000, -0.000000000000000000, -0.000000000000000000 ) ) ;
#28 = VERTEX_POINT ( 'NONE', #172 ) ;
#29 = CYLINDRICAL_SURFACE ( 'NONE', #65, 12.69999999999999929 ) ;
#30 = CARTESIAN_POINT ( 'NONE',  ( 3.000000000000000888, 12.69999999999999929, 0.000000000000000000 ) ) ;
#31 = CLOSED_SHELL ( 'NONE', ( #157, #89, #15, #91 ) ) ;
#32 = FACE_OUTER_BOUND ( 'NONE', #139, .T. ) ;
#33 = ORIENTED_EDGE ( 'NONE', *, *, #109, .F. ) ;
#34 = APPROVAL_PERSON_ORGANIZATION ( #38, #118, #53 ) ;
#35 = CARTESIAN_POINT ( 'NONE',  ( -3.000000000000001776, 0.000000000000000000, 0.000000000000000000 ) ) ;
#36 = DIRECTION ( 'NONE',  ( 1.000000000000000000, 0.000000000000000000, 0.000000000000000000 ) ) ;
#37 = CC_DESIGN_DATE_AND_TIME_ASSIGNMENT ( #147, #87, ( #130 ) ) ;
#38 = PERSON_AND_ORGANIZATION ( #58, #61 ) ;
#39 = CALENDAR_DATE ( 2020, 22, 12 ) ;
#40 = COORDINATED_UNIVERSAL_TIME_OFFSET ( 8, 0, .AHEAD. ) ;
#41 = CC_DESIGN_SECURITY_CLASSIFICATION ( #161, ( #56 ) ) ;
#42 = EDGE_CURVE ( 'NONE', #28, #62, #153, .T. ) ;
#43 = DIRECTION ( 'NONE',  ( -1.000000000000000000, -0.000000000000000000, -0.000000000000000000 ) ) ;
#44 = VECTOR ( 'NONE', #27, 1000.000000000000000 ) ;
#45 = CARTESIAN_POINT ( 'NONE',  ( 3.000000000000001776, 0.000000000000000000, 0.000000000000000000 ) ) ;
#46 = ORIENTED_EDGE ( 'NONE', *, *, #52, .T. ) ;
#47 = FACE_OUTER_BOUND ( 'NONE', #80, .T. ) ;
#48 = VERTEX_POINT ( 'NONE', #156 ) ;
#49 = CIRCLE ( 'NONE', #142, 12.69999999999999929 ) ;
#50 = DIRECTION ( 'NONE',  ( -1.000000000000000000, -0.000000000000000000, -0.000000000000000000 ) ) ;
#51 = PERSON_AND_ORGANIZATION_ROLE ( 'creator' ) ;
#52 = EDGE_CURVE ( 'NONE', #48, #62, #133, .T. ) ;
#53 = APPROVAL_ROLE ( '' ) ;
#54 = APPROVAL_PERSON_ORGANIZATION ( #135, #77, #85 ) ;
#55 = DATE_AND_TIME ( #128, #120 ) ;
#56 = PRODUCT_DEFINITION_FORMATION_WITH_SPECIFIED_SOURCE ( 'ANY', '', #76, .NOT_KNOWN. ) ;
#57 = CC_DESIGN_PERSON_AND_ORGANIZATION_ASSIGNMENT ( #19, #98, ( #56 ) ) ;
#58 = PERSON ( 'UNSPECIFIED', 'UNSPECIFIED', 'UNSPECIFIED', ('UNSPECIFIED'), ('UNSPECIFIED'), ('UNSPECIFIED') ) ;
#59 = LOCAL_TIME ( 17, 20, 0.000000000000000000, #107 ) ;
#60 = CARTESIAN_POINT ( 'NONE',  ( -3.000000000000001776, 0.000000000000000000, 0.000000000000000000 ) ) ;
#61 = ORGANIZATION ( 'UNSPECIFIED', 'UNSPECIFIED', '' ) ;
#62 = VERTEX_POINT ( 'NONE', #138 ) ;
#63 = CC_DESIGN_PERSON_AND_ORGANIZATION_ASSIGNMENT ( #66, #51, ( #130 ) ) ;
#64 = PLANE ( 'NONE',  #99 ) ;
#65 = AXIS2_PLACEMENT_3D ( 'NONE', #158, #112, #90 ) ;
#66 = PERSON_AND_ORGANIZATION ( #58, #61 ) ;
#67 = EDGE_CURVE ( 'NONE', #62, #48, #49, .T. ) ;
#68 = LOCAL_TIME ( 17, 20, 0.000000000000000000, #151 ) ;
#69 = DATE_TIME_ROLE ( 'classification_date' ) ;
#70 = APPROVAL_DATE_TIME ( #10, #118 ) ;
#71 = MANIFOLD_SOLID_BREP ( 'Ðý×', #31 ) ;
#72 = DATE_AND_TIME ( #84, #149 ) ;
#73 = AXIS2_PLACEMENT_3D ( 'NONE', #168, #50, #105 ) ;
#74 = CC_DESIGN_APPROVAL ( #77, ( #130 ) ) ;
#75 = APPLICATION_CONTEXT ( 'configuration controlled 3d designs of mechanical parts and assemblies' ) ;
#76 = PRODUCT ( 'Q-OZHWP-R2-25.4-894-M', 'Q-OZHWP-R2-25.4-894-M', '', ( #9 ) ) ;
#77 = APPROVAL ( #119, 'UNSPECIFIED' ) ;
#78 = DIRECTION ( 'NONE',  ( -0.000000000000000000, 0.000000000000000000, 1.000000000000000000 ) ) ;
#79 =( NAMED_UNIT ( * ) PLANE_ANGLE_UNIT ( ) SI_UNIT ( $, .RADIAN. ) );
#80 = EDGE_LOOP ( 'NONE', ( #170, #24, #16, #25 ) ) ;
#81 = FACE_OUTER_BOUND ( 'NONE', #104, .T. ) ;
#82 = DIRECTION ( 'NONE',  ( -1.000000000000000000, -0.000000000000000000, -0.000000000000000000 ) ) ;
#83 = DIRECTION ( 'NONE',  ( -1.000000000000000000, -0.000000000000000000, -0.000000000000000000 ) ) ;
#84 = CALENDAR_DATE ( 2020, 22, 12 ) ;
#85 = APPROVAL_ROLE ( '' ) ;
#86 = PERSON_AND_ORGANIZATION ( #58, #61 ) ;
#87 = DATE_TIME_ROLE ( 'creation_date' ) ;
#88 = PERSON_AND_ORGANIZATION_ROLE ( 'design_owner' ) ;
#89 = ADVANCED_FACE ( 'NONE', ( #32 ), #14, .T. ) ;
#90 = DIRECTION ( 'NONE',  ( 0.000000000000000000, 0.000000000000000000, 1.000000000000000000 ) ) ;
#91 = ADVANCED_FACE ( 'NONE', ( #94 ), #6, .F. ) ;
#92 =( NAMED_UNIT ( * ) SI_UNIT ( $, .STERADIAN. ) SOLID_ANGLE_UNIT ( ) );
#93 = DIRECTION ( 'NONE',  ( 0.000000000000000000, 0.000000000000000000, 1.000000000000000000 ) ) ;
#94 = FACE_OUTER_BOUND ( 'NONE', #137, .T. ) ;
#95 = PERSON_AND_ORGANIZATION_ROLE ( 'design_supplier' ) ;
#96 = APPROVAL ( #18, 'UNSPECIFIED' ) ;
#97 = PERSON_AND_ORGANIZATION_ROLE ( 'classification_officer' ) ;
#98 = PERSON_AND_ORGANIZATION_ROLE ( 'creator' ) ;
#99 = AXIS2_PLACEMENT_3D ( 'NONE', #30, #141, #78 ) ;
#100 = CC_DESIGN_APPROVAL ( #96, ( #56 ) ) ;
#101 = AXIS2_PLACEMENT_3D ( 'NONE', #140, #8, #166 ) ;
#102 =( GEOMETRIC_REPRESENTATION_CONTEXT ( 3 ) GLOBAL_UNCERTAINTY_ASSIGNED_CONTEXT ( ( #26 ) ) GLOBAL_UNIT_ASSIGNED_CONTEXT ( ( #114, #79, #92 ) ) REPRESENTATION_CONTEXT ( 'NONE', 'WORKASPACE' ) );
#103 = DIRECTION ( 'NONE',  ( 0.000000000000000000, 0.000000000000000000, 1.000000000000000000 ) ) ;
#104 = EDGE_LOOP ( 'NONE', ( #33, #171 ) ) ;
#105 = DIRECTION ( 'NONE',  ( 0.000000000000000000, 0.000000000000000000, 1.000000000000000000 ) ) ;
#106 = CC_DESIGN_APPROVAL ( #118, ( #161 ) ) ;
#107 = COORDINATED_UNIVERSAL_TIME_OFFSET ( 8, 0, .AHEAD. ) ;
#108 = APPROVAL_ROLE ( '' ) ;
#109 = EDGE_CURVE ( 'NONE', #28, #122, #164, .T. ) ;
#110 = PERSON_AND_ORGANIZATION ( #58, #61 ) ;
#111 = DIRECTION ( 'NONE',  ( 0.000000000000000000, 0.000000000000000000, 1.000000000000000000 ) ) ;
#112 = DIRECTION ( 'NONE',  ( -1.000000000000000000, -0.000000000000000000, -0.000000000000000000 ) ) ;
#113 = ORIENTED_EDGE ( 'NONE', *, *, #42, .T. ) ;
#114 =( LENGTH_UNIT ( ) NAMED_UNIT ( * ) SI_UNIT ( .MILLI., .METRE. ) );
#115 = ORIENTED_EDGE ( 'NONE', *, *, #67, .T. ) ;
#116 = APPLICATION_PROTOCOL_DEFINITION ( 'international standard', 'config_control_design', 1994, #75 ) ;
#117 = APPROVAL_STATUS ( 'not_yet_approved' ) ;
#118 = APPROVAL ( #117, 'UNSPECIFIED' ) ;
#119 = APPROVAL_STATUS ( 'not_yet_approved' ) ;
#120 = LOCAL_TIME ( 17, 20, 0.000000000000000000, #173 ) ;
#121 = DIRECTION ( 'NONE',  ( -1.000000000000000000, -0.000000000000000000, -0.000000000000000000 ) ) ;
#122 = VERTEX_POINT ( 'NONE', #127 ) ;
#123 = CIRCLE ( 'NONE', #5, 12.69999999999999929 ) ;
#124 = ORIENTED_EDGE ( 'NONE', *, *, #52, .F. ) ;
#125 = DIRECTION ( 'NONE',  ( -1.000000000000000000, -0.000000000000000000, -0.000000000000000000 ) ) ;
#126 = CARTESIAN_POINT ( 'NONE',  ( -3.000000000000000000, 1.555301434917138433E-15, -12.69999999999999929 ) ) ;
#127 = CARTESIAN_POINT ( 'NONE',  ( 3.000000000000001776, 1.555301434917138433E-15, -12.69999999999999929 ) ) ;
#128 = CALENDAR_DATE ( 2020, 22, 12 ) ;
#129 = LOCAL_TIME ( 17, 20, 0.000000000000000000, #134 ) ;
#130 = PRODUCT_DEFINITION ( 'UNKNOWN', '', #56, #169 ) ;
#131 = CALENDAR_DATE ( 2020, 22, 12 ) ;
#132 = APPLICATION_PROTOCOL_DEFINITION ( 'international standard', 'config_control_design', 1994, #3 ) ;
#133 = CIRCLE ( 'NONE', #1, 12.69999999999999929 ) ;
#134 = COORDINATED_UNIVERSAL_TIME_OFFSET ( 8, 0, .AHEAD. ) ;
#135 = PERSON_AND_ORGANIZATION ( #58, #61 ) ;
#136 = AXIS2_PLACEMENT_3D ( 'NONE', #155, #82, #93 ) ;
#137 = EDGE_LOOP ( 'NONE', ( #115, #46 ) ) ;
#138 = CARTESIAN_POINT ( 'NONE',  ( -3.000000000000001776, 0.000000000000000000, 12.69999999999999929 ) ) ;
#139 = EDGE_LOOP ( 'NONE', ( #159, #7, #113, #124 ) ) ;
#140 = CARTESIAN_POINT ( 'NONE',  ( -3.000000000000000888, 12.69999999999999929, 0.000000000000000000 ) ) ;
#141 = DIRECTION ( 'NONE',  ( -1.000000000000000000, 0.000000000000000000, -0.000000000000000000 ) ) ;
#142 = AXIS2_PLACEMENT_3D ( 'NONE', #35, #83, #103 ) ;
#143 = EDGE_CURVE ( 'NONE', #122, #28, #123, .T. ) ;
#144 = CARTESIAN_POINT ( 'NONE',  ( -3.000000000000000000, 0.000000000000000000, 12.69999999999999929 ) ) ;
#145 = DIRECTION ( 'NONE',  ( 0.000000000000000000, 0.000000000000000000, 1.000000000000000000 ) ) ;
#146 = EDGE_CURVE ( 'NONE', #122, #48, #17, .T. ) ;
#147 = DATE_AND_TIME ( #39, #129 ) ;
#148 = DATE_AND_TIME ( #174, #59 ) ;
#149 = LOCAL_TIME ( 17, 20, 0.000000000000000000, #40 ) ;
#150 = PERSON_AND_ORGANIZATION ( #58, #61 ) ;
#151 = COORDINATED_UNIVERSAL_TIME_OFFSET ( 8, 0, .AHEAD. ) ;
#152 = CC_DESIGN_PERSON_AND_ORGANIZATION_ASSIGNMENT ( #162, #97, ( #161 ) ) ;
#153 = LINE ( 'NONE', #144, #167 ) ;
#154 = AXIS2_PLACEMENT_3D ( 'NONE', #11, #111, #36 ) ;
#155 = CARTESIAN_POINT ( 'NONE',  ( 3.000000000000001776, 0.000000000000000000, 0.000000000000000000 ) ) ;
#156 = CARTESIAN_POINT ( 'NONE',  ( -3.000000000000001776, 1.555301434917138433E-15, -12.69999999999999929 ) ) ;
#157 = ADVANCED_FACE ( 'NONE', ( #47 ), #29, .T. ) ;
#158 = CARTESIAN_POINT ( 'NONE',  ( -3.000000000000000000, 0.000000000000000000, 0.000000000000000000 ) ) ;
#159 = ORIENTED_EDGE ( 'NONE', *, *, #146, .F. ) ;
#160 = APPROVAL_DATE_TIME ( #148, #96 ) ;
#161 = SECURITY_CLASSIFICATION ( '', '', #175 ) ;
#162 = PERSON_AND_ORGANIZATION ( #58, #61 ) ;
#163 = CC_DESIGN_PERSON_AND_ORGANIZATION_ASSIGNMENT ( #86, #88, ( #76 ) ) ;
#164 = CIRCLE ( 'NONE', #136, 12.69999999999999929 ) ;
#165 = ADVANCED_BREP_SHAPE_REPRESENTATION ( 'Q-OZHWP-R2-25.4-894-M', ( #71, #154 ), #102 ) ;
#166 = DIRECTION ( 'NONE',  ( 0.000000000000000000, 0.000000000000000000, -1.000000000000000000 ) ) ;
#167 = VECTOR ( 'NONE', #125, 1000.000000000000000 ) ;
#168 = CARTESIAN_POINT ( 'NONE',  ( -3.000000000000000000, 0.000000000000000000, 0.000000000000000000 ) ) ;
#169 = DESIGN_CONTEXT ( 'detailed design', #3, 'design' ) ;
#170 = ORIENTED_EDGE ( 'NONE', *, *, #109, .T. ) ;
#171 = ORIENTED_EDGE ( 'NONE', *, *, #143, .F. ) ;
#172 = CARTESIAN_POINT ( 'NONE',  ( 3.000000000000001776, 0.000000000000000000, 12.69999999999999929 ) ) ;
#173 = COORDINATED_UNIVERSAL_TIME_OFFSET ( 8, 0, .AHEAD. ) ;
#174 = CALENDAR_DATE ( 2020, 22, 12 ) ;
#175 = SECURITY_CLASSIFICATION_LEVEL ( 'unclassified' ) ;
ENDSEC;
END-ISO-10303-21;
